Archives pour la catégorie _Tabs Divers

Bass Tab : Julien Dore – Paris Seychelles

LiensPartition Basse et Playback Basse

Ci-dessous la tablature :

Couplet:  A    A    E    D

|-----------------|-----------------|-----------------|-----------------|
|-----------------|-----------------|-----------------|-----------------|
|-----------------|-----------------|-7-7---567-7---3-|-5-5---345-5-5---|
|-5-5---3-5-5---34|-5-5---3-8-8-7-5-|-----------------|---------------3-|

Lire la suite

591 total views, no views today

Bass Tab : Chuck Berry – Johnny B Goode

LiensPartition Basse et Playback Basse   /   Bonus : Video

Ci-dessous la tablature :

Partie 1
G|------------------------5-------5-------------------|
D|--------------------5-8-----5-8---8-8x-----8-8x-----|
A|------------------6-------6-----------8-10-----8-10-|
E|--------6-------------------------------------------|

G|----7---------7--------7-10------7-10----|
D|-10--------10--------8--------78--------7|
A|------8-10------8-10-------810-------810-|
E|-----------------------------------------|

Lire la suite

15 total views, no views today

Bass Tab : Prince – Purple Rain

LiensPartition Basse et Playback Basse

Ci-dessous la tablature :

Verse
 4/4
|-----------------|-----------------|-----------------|-----------------|
|-----------------|-----------------|-----------------|-----------------|
|-1---------1-1-1-|------------/5---|------------/8---|-6---5-------65-6|
|-----------------|-3---5---6-------|-1---------------|-------8---6---8-|

Lire la suite

110 total views, no views today

Bass Tab : Wild Cherry – Play That Funky Music

LiensPartition Basse et Playback Basse

Ci-dessous la tablature :

Riff 1
G|-------------------|-------------------|
D|-------------------|-------------------|
A|-------5-7------5h7|-------5-7------5h7|
E|-0----------05h7---|-0----------05h7---|

Variante
G|------------------|-----------------|
D|------------------|-----------------|
A|-------5-7------5-|-------5-7-------|
E|-00---------05h7--|-00---------05-3-|

Lire la suite

18 total views, no views today

Bass Tab : The Sylvers – Boogie Fever

LiensPartition Basse et Playback Basse

Ci-dessous la tablature :

Riff 1
G|-----------------|-----------------|-----------------|-----------------|
D|-------------3-1-|---1-1---1-1-1-3-|-------------3-1-|-------3-6-5-3---|
A|-----------3-----|-------3---------|-----------3-----|---3-6---------6-|
E|-1---1-----------|-----------------|-1---1-----------|-----------------|

Lire la suite

122 total views, no views today

Bass Tab : The Trammps – Disco Inferno

LiensPartition Basse et Playback Basse

Ci-dessous la tablature :

INTRO
G|-8-8-6-6-------------------------|
D|---------9-9-6-6-----------------|
A|-----------------8-8-6-6---------|
E|-------------------------9-9-6-8-|

VERSE
G|---------------------------------|---------------------------------|
D|---------------------------------|-----------------------7---8-----|
A|----10---6-8--------10---6-6-8---|----10---6-8------10-------------|
E|---8---8-----6-8---8---8-------8-|---8---8-----6-8-----5---6---7-8-|

Lire la suite

27 total views, no views today