Archives pour la catégorie Bob Marley

Bass Tab : Bob Marley – Buffalo Soldier

LiensPartition Basse et Playback Basse

Ci-dessous la tablature :

INTRO: 
G||-----------------|
D||-----------------|
A||-----------------|
E||-5-5-5-5-5-5-5-5-|  x4

VERSE: (4X)
G||-----------------|-----------------|-----------------|-----------------|
D||-----------------|-----------------|-4-4-------------|-----4-7---------|
A||-----------------|-----------------|-----7---5-------|-----------------|
E||-5-5-5---5-5-----|-5-5-5---5-5-----|-------------5---|---------5-5-----|

Lire la suite

13 total views, no views today

Bass Tab : Bob Marley – Could You Be Loved

LiensPartition Basse et Playback Basse

Ci-dessous la tablature :

Intro
G|-------------------------------|
D|-------------------------------|
A|-------9---------------9-------|
E|-77-10----10-9---77-10---10----|

Refrão: 1 X2
G|-----------------------------------------------|
D|---------------------55---55-------------------|
A|-55---55------------5----5-----555-----5-------|
E|-----5----577--577------------5---5--7-----5---|

Lire la suite

32 total views, no views today

Bass Tab : Bob Marley – Is This Love

LiensPartition Basse et Playback Basse

Ci-dessous la tablature :

Introdução
G |---------------------------|--------6-------76--7-6--|
D |------4---7---4-----4------|---4-7--------7----7---7-|
A |---47------------47--------|--5----------------------|
E |---------------------------|-------------------------|

G |---------------------------|-------------------------|
D |------4---7---4-----4------|---4-7-------------------|
A |---47------------47--------|--5----------------------|
E |---------------------------|-----------5-5-5-4-4-4-2-|

Lire la suite

14 total views, no views today