Archives pour la catégorie Bruno Mars

Bass Tab : Bruno Mars – Treasure

LiensPartition Basse (avec Solo) et Playback Basse

Ci-dessous la tablature :

Intro:
E|-6-6-6-6-6--(18)--|

Couplet et refrain:
G|----------------------------------------5-5-----------|
D|---6-----------3-3----------5------------------1------|
A|-----------------------------------1--3-----1h3-3--1--|
E|-4-----4--3--1------1--1--3-----3---------------------|

Lire la suite

20 total views, no views today

Bass Tab : Bruno Mars – Uptown Funk

LiensPartition Basse et Playback Basse

Ci-dessous la tablature :

Part 1. Verse - Main bass riff
G|-------------------|-------------------|-------------------|-------------------|
D|-------------------|-3~5-3----3~5-3----|-------------------|-3~5-3----3~5-3----|
A|-5\--------------5-|--------5--------3-|-5\--------------5-|--------5--------5-|
E|-------------------|-------------------|-------------------|-------------------|

Lire la suite

19 total views, no views today

Bass Tab : Bruno Mars – Locked Out Of Heaven

LiensPartition Basse et Playback Basse

Ci-dessous la tablature :

Main Riff
G|---------|---------------------------------------------------|
D|---------|---------------------------------------------------|
A|----3--5-|----3h5-3-------------------------------------3--5-|
E|---------|----------5-6----5h6-5-1-3--3-3--3---3-3--3--------|

Lire la suite

20 total views, 1 views today