Archives pour la catégorie Chic

Bass Tab : CHIC – Everybody Dance

LiensPartition Basse et Playback Basse

Ci-dessous la tablature :

Intro & Solo

G-----3555----3555----35--35------------------------3-3-----3-----|     |
D--------------------------------------------------------3--------|     |
A-3-33----3-33----3-33--33---03210------0-----1-----------1-----1-| 1.1 |
E---------------------------------4-------------------------------|     |

Lire la suite

32 total views, no views today

Bass Tab : Chic – Good Times

LiensPartition Basse et Playback Basse

Ci-dessous la tablature :

G|------------------------------------------------------------------|
D|-------------------------------2-------------------4-5-4----------|
A|-------------------------2-4-5--0----0---0------0-0-0----0---2----|
E|-0---0---0------0-02-3-5------------------------------------5-52--|

Lire la suite

26 total views, no views today

Bass Tab : Chic – I Want Your Love

LiensPartition Basse et Playback Basse

Ci-dessous la tablature :

Chorus :                                                                 
G|--------|--------|--------|--------|--------|--------|--------|--------|
D|--------|--------|--------|--------|--------|--------|--------|--------|
A|--------|--------|--------|--------|--------|-----076|5-5--056|7-7-----| X2
E|5-5--5-0|5------0|345-----|0------0|1-1--1-0|1-------|--------|-----034|

Lire la suite

18 total views, no views today