Archives pour la catégorie Jamiroquai

Bass Tab : Jamiroquai – Love Foolosophy

LiensPartition Basse et Playback Basse

Ci-dessous la tablature :

1st Verse:
        4   1   2   3   4    1   2   3   4    1   2   3   4    1   2   3   4   
G|---------|----------------|----------------|----------------|----------------|
D|---------|----9-x99-------|----------------|----101010------|--9-------------|
A|---------|----------9-----|--7-----------7-|----------10----|------9-------5-|
E|-----14\-|7-------------0-|------0---0h7---|8-------------7-|----------5h7---|

Lire la suite

25 total views, no views today

Bass Tab : Jamiroquai – Cosmic Girl

LiensPartition Basse et Playback Basse

Ci-dessous la tablature :

Verse 

G|-----|---------------|----------------|---------------|----------------|
D|-----|-------2----023|4---------------|-------2----023|4---------------|
A|-----|------2--------|---3--02--2-x2--|------2--------|---3--02----210-|
E|-15\-|0--3-----------|----------------|0--3-----------|---------------3|

Lire la suite

48 total views, 1 views today

Bass Tab : Jamiroquai – Canned Heat

Liens : Partition Basse et Playback Basse

Ci-dessous la tablature :

Intro slide          Intro — many times
 |———————————|—————|   |————————————————————————| 
 |———————————|—1———|   |————————————————————————| 
 |———————————|—————|   |—0h3h5—0h3h5—0h3h5—0h3h5| 
 |—13—10—6—3—|—————|   |————————————————————————| 

Lire la suite

47 total views, 1 views today