Archives pour la catégorie Earth Wind and Fire

Bass Tab : Earth Wind and Fire – Boogie Wonderland

LiensPartition Basse et Playback Basse

Ci-dessous la tablature :

Intro:
G|-----------------|     G|-----------------|
D|-----------------|     D|-----------------|
A|---------------5-| ou  A|---------3---4-5-|
E|-5---5---5---5---|     E|-5---5-----------|

Verse:
G|-----------------|-----------------|-----------------|-----------------|
D|-----------------|-----------------|-----------------|---------10--1112|
A|---5---5-------5-|---5-7-7-8-8-9-9-|-10108-10----8-10|-12--12----------|
E|-----8-----5-8---|-----------------|-----------10----|-----------------|

Lire la suite

88 total views, 1 views today

Bass Tab : Earth Wind and Fire – September

LiensPartition Basse et Playback Basse

Ci-dessous la tablature :

Intro:
G|-----1214----1214-|     G|-----1214--------|
D|-----5-7-----5-7--|     D|-----5-7---------|
A|-0-0-----0-0------| x3  A|-0-0-----0-------| x1
E|------------------|     E|-----------------|

Verse:
G|-----------------|-----------------|-----------------|-----------------|
D|-----------------|-----------------|-----------------|-----------------|
A|-5-5---4---2---2-|-4-----------2-4-|-5-5---4---2---2-|-4-------------2-|
E|-----------------|---4-0---2-5-----|-----------------|---4-0---2-5-5---|

Lire la suite

41 total views, no views today