Archives pour la catégorie Arctic Monkeys

Bass Tab : Arctic Monkeys – Do I Wanna Know

LiensPartition Basse et Playback Basse

Ci-dessous la tablature :

Verse 1 (0:06) - Verse 2 (2:02)
G|----------|-----------|-----------|----------|
D|----------|-----------|-----------|----------| x5
A|----------|-6----3----|-----------|----------|
E|-3--------|-----------|-------10--|-3--------|

G|----------|-----------|---------|------------|
D|----------|-----------|---------|------------|
A|----------|-6----3----|---------|-5------10--|
E|-3--------|-----------|---------|------------|

Lire la suite

25 total views, no views today

Bass Tab : Arctic Monkeys – R U Mine

LiensPartition Basse et Playback Basse

Ci-dessous la tablature :

Starts at 0:21
G|-----------------------------------|
D|-----------------------------------|
A|-----------------------------------|
E|-10-----10-10---9---7-----7-7---5--|
 | +    -    +    -   +   -   +   -  |

Riff1 (0:23 to 0:43)
G|-------------------------------------------------------------------|
D|---------------------7---------------------------------------------|
A|-----------------7h9-----9---7-------------------------------------|  [X4]
E|-2-----2-2---7h9-----------------10-----10-10---9---7-----7-7---5--|
 | +   -   +   -   +   -   +   -   +    -    +    -   +   -   +   -  |

Lire la suite

13 total views, no views today