Archives pour la catégorie The Blues Brothers

Bass Tab : The Blues Brothers – Who’s Making Love

LiensPartition Basse et Playback Basse   /   Bonus : Video

Ci-dessous la tablature :

Verse
G------------------------------------|
D------------------------6-68-86-----|
A-8-8-------8--------8-8---------8-6-|
E-----10810-------810----------------|

G----------------------10------------|
D--------------------------7--8------|
A-8-8-------8--------8-------------6-|
E-----10810-------810----5--6--7-7---|

Lire la suite

21 total views, no views today

Bass Tab : The Blues Brothers – Shake Your Tail Feather

LiensPartition Basse et Playback Basse

Ci-dessous la tablature :

G |----------|----------|----------|-----------------|
D |----------|----------|----------|-----------------|
A |----------|----------|----------|---12121212121212|
E |----------|----------|----------|-----------------|

Riff 1: 
G |-----------------|-----------------|
D |-------7-9-7-----|-------121412----|
A |-5-5-9-------9-7-|-101014------1412| x2
E |-----------------|-----------------|

Lire la suite

17 total views, no views today

Bass Tab : The Blues Brothers – I’m a Soul Man

LiensPartition Basse et Playback Basse

Ci-dessous la tablature :

Intro:
G||-----------------|-----------------|-----------------|-----------------|
D||-----------------|-----------------|-----------------|-----------------|
A||-7~------------7-|-5~------------5-|-----------------|-----------------|
E||-----------------|-----------------|-3~------------3-|-5-------7-------|

Verse
    1   2   3   4
G||-----------------|-----------------|-----------------|-----------------|
D||-----------------|-----------------|-----------------|-----------------|
A||-7-74-4--------4-|-7-74-4--------4-|-7-74-4--------4-|-7--4-4--------4-|
E||-------7-5-5-7---|-------7-5-5-7---|-------7-5-5-7---|-------775-5-7---|

Lire la suite

19 total views, 1 views today

Bass Tab : The Blues Brothers – Gimme Some Lovin’

LiensPartition Basse et Playback Basse

Ci-dessous la tablature :

Intro
G|-----------------|
D|-----------------|
A|-7-7-7-7-7-------|
E|-------------0---|

Verse
G|---------------------------------|
D|---------------------------------|
A|-7-5-7-5-7-------7-5-7-5-7-4-5-6-| [x8]
E|-------------0-------------------|

Lire la suite

26 total views, no views today