Archives pour la catégorie Kool And The Gang

Bass Tab : Kool and The Gang – Hi De Hi Hi De Ho

LiensPartition Basse et Playback Basse

Ci-dessous la tablature :

Main riff

G|-------------------------------7h9--------------------------------|
D|-------------------------5----------------------------------------|
A|---------------------5-7---77-------------------------5-77----7---|
E|-0---3---5-------7-7--------------0---3---5\------7-7---------0---|

Lire la suite

26 total views, no views today

Bass Tab : Kool and The Gang – Jungle Boogie

LiensPartition Basse et Playback Basse

Ci-dessous la tablature :

Riff 1 
|----------------|----------------|-------------------|----------------|
|----------------|--------3---4---|8-8-----7--8-------|----------------|
|---1-1------1--3|--4--5----------|---10-10------10--9|--8--5--4---3---|
|3-3---1--3------|----------------|-------------------|----------------|
 1 + 2 + 3 + 4 +  1 + 2 + 3 + 4 +  1 +  2  + 3 + 4  +  1 + 2 + 3 + 4 +

Lire la suite

46 total views, no views today