Archives mensuelles : janvier 2016

Bass Tab : Arctic Monkeys – Do I Wanna Know

LiensPartition Basse et Playback Basse

Ci-dessous la tablature :

Verse 1 (0:06) - Verse 2 (2:02)
G|----------|-----------|-----------|----------|
D|----------|-----------|-----------|----------| x5
A|----------|-6----3----|-----------|----------|
E|-3--------|-----------|-------10--|-3--------|

G|----------|-----------|---------|------------|
D|----------|-----------|---------|------------|
A|----------|-6----3----|---------|-5------10--|
E|-3--------|-----------|---------|------------|

Lire la suite

25 total views, no views today

Bass Tab : Arctic Monkeys – R U Mine

LiensPartition Basse et Playback Basse

Ci-dessous la tablature :

Starts at 0:21
G|-----------------------------------|
D|-----------------------------------|
A|-----------------------------------|
E|-10-----10-10---9---7-----7-7---5--|
 | +    -    +    -   +   -   +   -  |

Riff1 (0:23 to 0:43)
G|-------------------------------------------------------------------|
D|---------------------7---------------------------------------------|
A|-----------------7h9-----9---7-------------------------------------|  [X4]
E|-2-----2-2---7h9-----------------10-----10-10---9---7-----7-7---5--|
 | +   -   +   -   +   -   +   -   +    -    +    -   +   -   +   -  |

Lire la suite

13 total views, no views today

Bass Tab : Bob Marley – Buffalo Soldier

LiensPartition Basse et Playback Basse

Ci-dessous la tablature :

INTRO: 
G||-----------------|
D||-----------------|
A||-----------------|
E||-5-5-5-5-5-5-5-5-|  x4

VERSE: (4X)
G||-----------------|-----------------|-----------------|-----------------|
D||-----------------|-----------------|-4-4-------------|-----4-7---------|
A||-----------------|-----------------|-----7---5-------|-----------------|
E||-5-5-5---5-5-----|-5-5-5---5-5-----|-------------5---|---------5-5-----|

Lire la suite

13 total views, no views today

Bass Tab : Bob Marley – Could You Be Loved

LiensPartition Basse et Playback Basse

Ci-dessous la tablature :

Intro
G|-------------------------------|
D|-------------------------------|
A|-------9---------------9-------|
E|-77-10----10-9---77-10---10----|

Refrão: 1 X2
G|-----------------------------------------------|
D|---------------------55---55-------------------|
A|-55---55------------5----5-----555-----5-------|
E|-----5----577--577------------5---5--7-----5---|

Lire la suite

32 total views, no views today

Bass Tab : Bob Marley – Is This Love

LiensPartition Basse et Playback Basse

Ci-dessous la tablature :

Introdução
G |---------------------------|--------6-------76--7-6--|
D |------4---7---4-----4------|---4-7--------7----7---7-|
A |---47------------47--------|--5----------------------|
E |---------------------------|-------------------------|

G |---------------------------|-------------------------|
D |------4---7---4-----4------|---4-7-------------------|
A |---47------------47--------|--5----------------------|
E |---------------------------|-----------5-5-5-4-4-4-2-|

Lire la suite

14 total views, no views today

Bass Tab : Boney M – Sunny

LiensPartition Basse et Playback Basse   /   Bonus : Video

Ci-dessous la tablature :

Intro 
G|------------------|------------------|------------------|-------------------|
D|------------------|-6-6-6------------|------------------|-6-6-6-------------|
A|-3-3-3----6-6-6---|----------5-5-----|-3-3-3----6-6-6---|----------5-5-----2|
E|------------------|--------------3---|------------------|--------------3-35-|

Lire la suite

1,081 total views, no views today

Bass Tab : CHIC – Everybody Dance

LiensPartition Basse et Playback Basse

Ci-dessous la tablature :

Intro & Solo

G-----3555----3555----35--35------------------------3-3-----3-----|     |
D--------------------------------------------------------3--------|     |
A-3-33----3-33----3-33--33---03210------0-----1-----------1-----1-| 1.1 |
E---------------------------------4-------------------------------|     |

Lire la suite

32 total views, no views today

Bass Tab : Chic – Good Times

LiensPartition Basse et Playback Basse

Ci-dessous la tablature :

G|------------------------------------------------------------------|
D|-------------------------------2-------------------4-5-4----------|
A|-------------------------2-4-5--0----0---0------0-0-0----0---2----|
E|-0---0---0------0-02-3-5------------------------------------5-52--|

Lire la suite

26 total views, no views today

Bass Tab : Chic – I Want Your Love

LiensPartition Basse et Playback Basse

Ci-dessous la tablature :

Chorus :                                                                 
G|--------|--------|--------|--------|--------|--------|--------|--------|
D|--------|--------|--------|--------|--------|--------|--------|--------|
A|--------|--------|--------|--------|--------|-----076|5-5--056|7-7-----| X2
E|5-5--5-0|5------0|345-----|0------0|1-1--1-0|1-------|--------|-----034|

Lire la suite

18 total views, no views today

Bass Tab : Earth Wind and Fire – Boogie Wonderland

LiensPartition Basse et Playback Basse

Ci-dessous la tablature :

Intro:
G|-----------------|     G|-----------------|
D|-----------------|     D|-----------------|
A|---------------5-| ou  A|---------3---4-5-|
E|-5---5---5---5---|     E|-5---5-----------|

Verse:
G|-----------------|-----------------|-----------------|-----------------|
D|-----------------|-----------------|-----------------|---------10--1112|
A|---5---5-------5-|---5-7-7-8-8-9-9-|-10108-10----8-10|-12--12----------|
E|-----8-----5-8---|-----------------|-----------10----|-----------------|

Lire la suite

88 total views, 1 views today

Bass Tab : Earth Wind and Fire – September

LiensPartition Basse et Playback Basse

Ci-dessous la tablature :

Intro:
G|-----1214----1214-|     G|-----1214--------|
D|-----5-7-----5-7--|     D|-----5-7---------|
A|-0-0-----0-0------| x3  A|-0-0-----0-------| x1
E|------------------|     E|-----------------|

Verse:
G|-----------------|-----------------|-----------------|-----------------|
D|-----------------|-----------------|-----------------|-----------------|
A|-5-5---4---2---2-|-4-----------2-4-|-5-5---4---2---2-|-4-------------2-|
E|-----------------|---4-0---2-5-----|-----------------|---4-0---2-5-5---|

Lire la suite

41 total views, no views today

Bass Tab : Gloria Gaynor ou Cake – I Will Survive

LiensPartition Basse et Playback Basse

Ci-dessous la tablature :

Verse/Chorus/Solo
  1   2   3   4      1   2   3   4      1   2   3   4      1   2   3   4
G──────────────────┬─────7──5────575──┬──────────────────┬─────5──3────353──┐
D─────7──5────575──┼───────7──77────7─┼─────5──3────353──┼───────5──55────5─┤
A───────7──77────7─┼─5─5──────────────┼───────5──55────5─┼─3─3──────────────┤
E─5─5──────────────┴──────────────────┴─3─3──────────────┴──────────────────┘

Lire la suite

30 total views, no views today

Bass Tab : Otis Redding – Sitting on the dock of the bay

LiensPartition Basse et Playback Basse

Ci-dessous la tablature :

Intro (repeat with fade for outro) 
G|--------------|--------------|--------------|--------------|
D|--------------|--------------|--------------|--------------|
A|------3h5-3h5-|------3h5-3h5-|------3h5-3h5-|------3h5-3h5-|
E|-3---3--------|-3---3--------|-3---3--------|-3---3--------|

Lire la suite

55 total views, no views today

Bass Tab : The Doobie Brothers – Long Train Running

LiensPartition Basse et Playback Basse

Ci-dessous la tablature :

G|-3--------------|
D|5--5-3----3-----|
A|-------35---53--|
E|--------------6-|

Intro
G|--------------|--------------|--------------|--------------|
D|--------3---5-|--------3---5-|--------3---5-|--------3-4-5-|
A|-----3h5---5--|-----3h5---5--|-----3h5---5--|-----3h5-5----|
E|-3------------|-3------------|-3------------|-3------------|

Lire la suite

299 total views, no views today

Bass Tab : Michael Jackson – Rock With You

LiensPartition Basse et Playback Basse

Ci-dessous la tablature :

Chorus:
G|------------------|------------------|------------------|---------------------|
D|------------------|---------8--------|------------------|-----------11----12--|
A|-6------66-----6--|--------8---8-----|-6------66-----6--|---------------------|
E|------------------|-6-----------6-9--|------------------|-6-----9------10-----|

Lire la suite

11 total views, no views today