Archives mensuelles : février 2016

Bass Tab : The Blues Brothers – Gimme Some Lovin’

LiensPartition Basse et Playback Basse

Ci-dessous la tablature :

Intro
G|-----------------|
D|-----------------|
A|-7-7-7-7-7-------|
E|-------------0---|

Verse
G|---------------------------------|
D|---------------------------------|
A|-7-5-7-5-7-------7-5-7-5-7-4-5-6-| [x8]
E|-------------0-------------------|

Lire la suite

26 total views, no views today

Bass Tab : The Sylvers – Boogie Fever

LiensPartition Basse et Playback Basse

Ci-dessous la tablature :

Riff 1
G|-----------------|-----------------|-----------------|-----------------|
D|-------------3-1-|---1-1---1-1-1-3-|-------------3-1-|-------3-6-5-3---|
A|-----------3-----|-------3---------|-----------3-----|---3-6---------6-|
E|-1---1-----------|-----------------|-1---1-----------|-----------------|

Lire la suite

122 total views, no views today

Bass Tab : Calogero – le Monde Moderne

LiensPartition Basse et Playback Basse

Ci-dessous la tablature :

Couplet 1 : G  C  E  D  C  C  (x2)

Refrain 1 : A  F#  D#  E  C  D  E  -  A  D  D#  E  C(15) D(17) E(19)

Couplet 2 : 

G|------------------------------------------------------------------------------------------|
D|------------------------------------------------------------------------------------------|
A|----------------3--3--03-3-3-3-7--7--07-7-7-7-5--5--05-5-5-5-3--3--03-3----3--3--03-3-5-5-|  (x2)
E|-3--3--03-3-3-3----------------------------------------------------------3----------------|

Lire la suite

140 total views, no views today

Bass Tab : The Trammps – Disco Inferno

LiensPartition Basse et Playback Basse

Ci-dessous la tablature :

INTRO
G|-8-8-6-6-------------------------|
D|---------9-9-6-6-----------------|
A|-----------------8-8-6-6---------|
E|-------------------------9-9-6-8-|

VERSE
G|---------------------------------|---------------------------------|
D|---------------------------------|-----------------------7---8-----|
A|----10---6-8--------10---6-6-8---|----10---6-8------10-------------|
E|---8---8-----6-8---8---8-------8-|---8---8-----6-8-----5---6---7-8-|

Lire la suite

27 total views, no views today

Bass Tab : Kool and The Gang – Jungle Boogie

LiensPartition Basse et Playback Basse

Ci-dessous la tablature :

Riff 1 
|----------------|----------------|-------------------|----------------|
|----------------|--------3---4---|8-8-----7--8-------|----------------|
|---1-1------1--3|--4--5----------|---10-10------10--9|--8--5--4---3---|
|3-3---1--3------|----------------|-------------------|----------------|
 1 + 2 + 3 + 4 +  1 + 2 + 3 + 4 +  1 +  2  + 3 + 4  +  1 + 2 + 3 + 4 +

Lire la suite

46 total views, no views today

Bass Tab : Donna Summer – Hot Stuff

LiensPartition Basse et Playback Basse

Ci-dessous la tablature :

INTRO AND VERSE
G|-----------------|---------|---------|
D|-----------------|---------|---------|
A|-----------------|---------|---------|
E|-3---------------|-1-------|-3-------|

G|-----------------------------------------------------------------|
D|-----------3---5---3-5-3-----------------------------------------|
A|-------3-5---------------5-----3-----3---3---3-45--3-------------| x2
E|-3-5-6---------------------6-------6---6---6---------6-3---------|

Lire la suite

109 total views, no views today

Bass Tab : Madilyn Bailey – Radioactive

LiensPartition Basse et Playback Basse

Ci-dessous la tablature :

Intro/Verse
G|—————————————————————————————————|—————————————————————————————————|
D|—————————————————8———8—8—————————|—————————————————8~——————————————|
A|—————————6———6—6—————————8———8—8—|—————————6———6—6—————————————————|
E|—8———8—8—————————————————————————|—8———8—8—————————————————————————|

Lire la suite

28 total views, 2 views today

Bass Tab : Calogero – Un Jour Au Mauvais Endroit

LiensPartition Basse et Playback Basse

Ci-dessous la tablature :

G|------------------------------------------------------------------------|
D|-9-9-12-12-----------9-9-12-12------------------------------------------|
A|-----------9-9-12-12-----------9-9-12-12-10-10-10--10--10-9-7-7-7--7--7-|
E|------------------------------------------------------------------------|

Lire la suite

32 total views, no views today

Bass Tab : Calogero – Pomme C

LiensPartition Basse et Playback Basse

Ci-dessous la tablature :

Intro : x1 Guitare
I-----------------------------------------------------------------
I-----------------------------------------------------------------
I-3-3-3-3-8-8-8-8-1-1-1-1-6-6-6-6---------------------------------
I---------------------------------4-4-4-4-9-9-9-9-3-3-3-3-3-3-3-3-

------------------------------------------------------------------------------------------I
------------------------------------------------------------------------------------------I
--3-3-3-3-8-8-8-8-1-1-1-1-6-6-6-6---------------------------------------------------------I
----------------------------------4-4-4-4-9-9-9-9-3-3-3-3-3-3-3-3-15-15-15-15-15-15-15-15-I

Lire la suite

87 total views, 1 views today

Bass Tab : Calogero – Le Portrait

LiensPartition Basse et Playback Basse   /   Bonus : Video

Ci-dessous la tablature :

Couplet 1 : F  C  F  C  A  F  G  G

Refrain 1 : 
G|-------------------------------------------------------|
D|-------------------------------------------------------|
A|--------23--23----------22--02--------3/7--5-----------|
E|-5--35----------3--23--3-------01---------------33-13--|

G|------------------------------------------------------------------|
D|-----------------------------------------7------------------------|
A|--------23--23----------22--02----/8---78--7-5--------------------|
E|-5--35----------3--23--3-------01-----------------33-13--3--------|

Lire la suite

264 total views, no views today