Archives mensuelles : avril 2016

Bass Tab : Chuck Berry – Johnny B Goode

LiensPartition Basse et Playback Basse   /   Bonus : Video

Ci-dessous la tablature :

Partie 1
G|------------------------5-------5-------------------|
D|--------------------5-8-----5-8---8-8x-----8-8x-----|
A|------------------6-------6-----------8-10-----8-10-|
E|--------6-------------------------------------------|

G|----7---------7--------7-10------7-10----|
D|-10--------10--------8--------78--------7|
A|------8-10------8-10-------810-------810-|
E|-----------------------------------------|

Lire la suite

15 total views, no views today

Bass Tab : Prince – Purple Rain

LiensPartition Basse et Playback Basse

Ci-dessous la tablature :

Verse
 4/4
|-----------------|-----------------|-----------------|-----------------|
|-----------------|-----------------|-----------------|-----------------|
|-1---------1-1-1-|------------/5---|------------/8---|-6---5-------65-6|
|-----------------|-3---5---6-------|-1---------------|-------8---6---8-|

Lire la suite

110 total views, no views today

Bass Tab : The Blues Brothers – Who’s Making Love

LiensPartition Basse et Playback Basse   /   Bonus : Video

Ci-dessous la tablature :

Verse
G------------------------------------|
D------------------------6-68-86-----|
A-8-8-------8--------8-8---------8-6-|
E-----10810-------810----------------|

G----------------------10------------|
D--------------------------7--8------|
A-8-8-------8--------8-------------6-|
E-----10810-------810----5--6--7-7---|

Lire la suite

21 total views, no views today

Bass Tab : Wild Cherry – Play That Funky Music

LiensPartition Basse et Playback Basse

Ci-dessous la tablature :

Riff 1
G|-------------------|-------------------|
D|-------------------|-------------------|
A|-------5-7------5h7|-------5-7------5h7|
E|-0----------05h7---|-0----------05h7---|

Variante
G|------------------|-----------------|
D|------------------|-----------------|
A|-------5-7------5-|-------5-7-------|
E|-00---------05h7--|-00---------05-3-|

Lire la suite

18 total views, no views today

Bass Tab : The Blues Brothers – Shake Your Tail Feather

LiensPartition Basse et Playback Basse

Ci-dessous la tablature :

G |----------|----------|----------|-----------------|
D |----------|----------|----------|-----------------|
A |----------|----------|----------|---12121212121212|
E |----------|----------|----------|-----------------|

Riff 1: 
G |-----------------|-----------------|
D |-------7-9-7-----|-------121412----|
A |-5-5-9-------9-7-|-101014------1412| x2
E |-----------------|-----------------|

Lire la suite

17 total views, no views today

Bass Tab : The Blues Brothers – I’m a Soul Man

LiensPartition Basse et Playback Basse

Ci-dessous la tablature :

Intro:
G||-----------------|-----------------|-----------------|-----------------|
D||-----------------|-----------------|-----------------|-----------------|
A||-7~------------7-|-5~------------5-|-----------------|-----------------|
E||-----------------|-----------------|-3~------------3-|-5-------7-------|

Verse
    1   2   3   4
G||-----------------|-----------------|-----------------|-----------------|
D||-----------------|-----------------|-----------------|-----------------|
A||-7-74-4--------4-|-7-74-4--------4-|-7-74-4--------4-|-7--4-4--------4-|
E||-------7-5-5-7---|-------7-5-5-7---|-------7-5-5-7---|-------775-5-7---|

Lire la suite

19 total views, 1 views today