Bass Tab : Bruno Mars – Treasure

LiensPartition Basse (avec Solo) et Playback Basse   /   GPTabs Guitar Pro

Tablature ci-dessous :

Afficher en Plein Ecran
Intro:
E|-6-6-6-6-6--(18)--|

Couplet et refrain:
G|----------------------------------------5-5-----------|
D|---6-----------3-3----------5------------------1------|
A|-----------------------------------1--3-----1h3-3--1--|
E|-4-----4--3--1------1--1--3-----3---------------------|

Fin de couplet et de refrain:
G|--------------------------------------------------------------|
D|---6-----------3-3--------------------------------------------|
A|---------------------------------------\13-13-13-13-13-13-13/-| 
E|-4-----4--3--1------1--1--\6--6--6--6-------------------------|