Bass Tab : Julien Dore – Paris Seychelles

Liens : Partition Basse et Playback Basse   /   GPTabs Guitar Pro

Tablature ci-dessous :

Couplet:  A    A    E    D

|-----------------|-----------------|-----------------|-----------------|
|-----------------|-----------------|-----------------|-----------------|
|-----------------|-----------------|-7-7---567-7---3-|-5-5---345-5-5---|
|-5-5---3-5-5---34|-5-5---3-8-8-7-5-|-----------------|---------------3-|

Refrain:  C    D    E    D

|-----------------|-----------------|-----------------|-----------------|
|-----------------|-----------------|-----------------|-----------------|
|-3-3---3-3-3---3-|-5-5---345-5---5-|-7-7---567-7---3-|-5-5---345-5---5-|
|-----------------|-----------------|-----------------|-----------------|

|-----------------|-----------------|-----------------|-----------------|
|-----------------|-----------4-5-4-|-----------------|-----------------|
|-3-3-3-3-3-3-3-3-|-5-5-5-345-------|-7-7-7-567-7-7-3-|-5-5-5-345-5-5-5-|
|-----------------|-----------------|-----------------|-----------------|



Variante Refrain:  C    D    E    D

|-----------------|--------------------|----------------------|--------------------|
|-----------------|--------------------|----------------------|--------------------|
|-----------------|--------------------|----------------------|--------------------|
|-8-8---8-8-8---8-|10-10---8910-10---10|12-12---101112-12---8-|10-10---8910-10---10|

|-----------------|---------------------|------------------------|----------------------|
|-----------------|---------------------|------------------------|----------------------|
|-----------------|--------------9-10-9-|------------------------|----------------------|
|-8-8-8-8-8-8-8-8-|10-10-10-8910--------|12-12-12-101112-12-12-8-|10-10-10-8910-10-10-10|