Bass Tab : Kool and The Gang – Hi De Hi Hi De Ho

Liens : Partition Basse et Playback Basse

Tablature ci-dessous :

Main riff

G|-------------------------------7h9--------------------------------|
D|-------------------------5----------------------------------------|
A|---------------------5-7---77-------------------------5-77----7---|
E|-0---3---5-------7-7--------------0---3---5\------7-7---------0---|

Bridge

G|-------------------------------7h9--------------------------------|
D|------------------------------------------------------------------| 2x
A|----------------57---7x5-7----------------------------------------|
E|-7---7x5-7-----7------------------5---x55-7---x77-8---x88-3---3---|