Bass Tab : Kool and The Gang – Jungle Boogie

Liens : Partition Basse et Playback Basse

Tablature ci-dessous :

Riff 1 
|----------------|----------------|-------------------|----------------|
|----------------|--------3---4---|8-8-----7--8-------|----------------|
|---1-1------1--3|--4--5----------|---10-10------10--9|--8--5--4---3---|
|3-3---1--3------|----------------|-------------------|----------------|
 1 + 2 + 3 + 4 +  1 + 2 + 3 + 4 +  1 +  2  + 3 + 4  +  1 + 2 + 3 + 4 +

Riff 2 
|----------------|----------------|
|----------32----|----------------|
|----------------|----------------|
|3-33-33---------|3-33-33---1-3---|
 1 + 2 + 3 + 4 +  1 + 2 + 3 + 4 +  

Riff 3
|----------------|----------------|----------------|----------------|
|787-575---------|----------32----|------32--32----|---3-23---5-----|
|----------------|----------------|----------------|----------------|
|----------3-3---|3-33-33-------2-|3--3----------2-|3-3---------3-2-|
 1 + 2 + 3 + 4 +  1 + 2 + 3 + 4 +  1 + 2 + 3 + 4 +  1 + 2 + 3 + 4 +

Riff 4
|----------------|----------------|
|---3------3-2-3-|---3------5-2-3-|
|----------------|----------------|
|3-3--33---------|3-3--33---------|
 1 + 2 + 3 + 4 +  1 + 2 + 3 + 4 +