Bass Tab : Michael Jackson – Blame It On The Boogie

LiensPartition Basse et Playback Basse   /   GPTabs Guitar Pro

Tablature ci-dessous :

Afficher en Plein Ecran
  Intro
G|-----------------------------|     G|---------------------------|
D|----------------x------------|     D|----------------x----------|
A|-66----33--------------------| x3  A|-66----33------------------| x1
E|----33----33-11x-x3-4-5-686--|     E|----33----33-11x-x3-4-5-6--|

  Verse
G|-----------------------------------|  G|---5-----------------------------|
D|-----------------------------------|  D|---------------------------/8~---|
A|-3--33-356--660123--33-35/6---6~---|  A|-3--33345664433------------------|
E|---------------------------44------|  E|---------------664—4434566--6----|

  Chorus
G|--8----8--7--6----6----8--6--6--7--8-----8h10p8---|
D|-------------------------------------8-10------10-|
A|-6-6-x6-x5-x4-4-x4-x4/6--4-x4-x5-x6-6-------------| x2
E|--------------------------------------------------|

  Verse

  Chorus

  Break
G|-----686-------------------------| G|-------------353-----------------|
D|---------------------------------| D|---------------------------------|
A|-6-------3---------------x1--1---| A|-6------33---------------x1--1---| x2
E|----------------11---------------| E|-----------------1---------------|

  Chorus

  Break (Intro/2)
G|-----------------------------|  G|---------------------------|
D|----------------x------------|  D|----------------x----------|
A|-66----33----------------3---|  A|-66----33---------------2--|
E|----33----33-11x-x3-4-6-6-6--|  E|----33----33-11x-x3-4-6----|

  Verse

  Chorus
  	
  Break
G|--------------------------------------------------------------|
D|--------------------------------------------------------------|
A|-66-------------44--------------44--------------4/6-----------|
E|--------------------------------------------------------------|

G|----------8-8-------------6-6--------------------------810-10/12-10-8---|
D|---------------------------------------------------8/10--------------10-|
A|-66------x-x----44-------x-x----44--------------------------------------|
E|------------------------------------------------------------------------|

  Chorus

  Break (Intro/2)
G|-----------------------------|  G|---------------------------|-----
D|----------------x------------|  D|----------------x----------|-----
A|-66----33--------------------|  A|-66----33------------------|-6~--
E|----33----33-11x-x3-4-5-686--|  E|----33----33-11x-x3-4-5-6--|-----