Bass Tab : Bob Marley – Could You Be Loved

LiensPartition Basse et Playback Basse

Tablature ci-dessous :

Afficher en Plein Ecran
Intro
G|-------------------------------|
D|-------------------------------|
A|-------9---------------9-------|
E|-77-10----10-9---77-10---10----|

Refrão: 1 X2
G|-----------------------------------------------|
D|---------------------55---55-------------------|
A|-55---55------------5----5-----555-----5-------|
E|-----5----577--577------------5---5--7-----5---|

Verso: 1
G|-----------------------------------------------|
D|-----------------------------------------------|
A|----7-9----------7-9------77---77---77----77---|
E|-710----7----710-----7--------7----7-----7-----|

G|-----------------------------------------------|
D|-----------------------------------------------|
A|----7-9----------7-9------77---77---77----77---|
E|-710----7----710-----7--------7----7-----7-----|

G|--------------------------------------------------------|
D|-------------------------------1212-----1111------------|
A|----7-9----------7-9------1010------999------77----77---|
E|-710----7----710-----7--------------------------77------|

G|-------------------------------------------------------------|
D|--------9------------------------121212----111111-77----77---|
A|----7-9---------7-9-------101010--------999----------77------|
E|-710---------710-----7---------------------------------------|

Refrão: 2 X2
G|-----------------------------------------------|
D|-----------------------------------------------|
A|-55---55-----------------------555-----5-5-----|
E|-----5----577--577--233--233--5---5--7-----5---|

break (over i threes vocal) X3
G|-------------------------------------------------------------|
D|-------------------------------------------------------------|
A|--------5-5-7-9--------5-5------------5-5-7-9--------5-5-----|
E|-7-57-7---------7-57-7-----7---7-57-7---------7-57-7-----7---|

Verso: 2
G|-----------------------------------------------------|
D|-----------------------------------------------------|
A|-------9---------------9---------77---77---77---77---|
E|-77-10----10-9---77-10----10-9-------7----7----7-----|

G|-----------------------------------------------------|
D|-----------------------------------------------------|
A|-------9---------------9---------77---77---77---77---|
E|-77-10----10-9---77-10----10-9-------7----7----7-----|

G|--------------------------------------------------------------------|
D|---------------------------------------121212-----111111------------|
A|-------9---------------9--------101010--------999--------77----77---|
E|-77-10----10-9---77-10----10-9------------------------------77------|

G|---------------------------------------------------------|
D|---------------------------------------121212-----111111-|
A|-------9---------------9--------101010--------999--------|
E|-77-10----10-9---77-10----10-9---------------------------|

G|-----999--------------999---------|
D|-777-----777------777-----777-----|
A|-------------77---------------77--|
E|----------------------------------|