Bass Tab : Bob Marley – Buffalo Soldier

LiensPartition Basse et Playback Basse

Tablature ci-dessous :

Afficher en Plein Ecran
INTRO: 
G||-----------------|
D||-----------------|
A||-----------------|
E||-5-5-5-5-5-5-5-5-|  x4

VERSE: (4X)
G||-----------------|-----------------|-----------------|-----------------|
D||-----------------|-----------------|-4-4-------------|-----4-7---------|
A||-----------------|-----------------|-----7---5-------|-----------------|
E||-5-5-5---5-5-----|-5-5-5---5-5-----|-------------5---|---------5-5-----|

PRE-CHORUS: (4X)
G||-----------------|-----------------|-----------------|-----------------|
D||-----------------|-----------------|-----------------|-----------------|
A||-5-5-5---4-4-----|-5-5-5---4-4-----|-4-4-4---2-2-2---|-----------------|
E||-------5-----4---|-------5-----4---|-------4---------|-2---2-----------|

VERSE: (4X)
G||-----------------|-----------------|-----------------|-----------------|
D||-----------------|-----------------|-4-4-------------|-----4-7---------|
A||-----------------|-----------------|-----7---5-------|-----------------|
E||-5-5-5---5-5-----|-5-5-5---5-5-----|-------------5---|---------5-5-----|

PRE-CHORUS: (4X)
G||-----------------|-----------------|-----------------|-----------------|
D||-----------------|-----------------|-----------------|-----------------|
A||-5-5-5---4-4-----|-5-5-5---4-4-----|-4-4-4---2-2-2---|-----------------|
E||-------5-----4---|-------5-----4---|-------4---------|-2---2-----------|

VERSE: (4X)
G||-----------------|-----------------|-----------------|-----------------|
D||-----------------|-----------------|-4-4-------------|-----4-7---------|
A||-----------------|-----------------|-----7---5-------|-----------------|
E||-5-5-5---5-5-----|-5-5-5---5-5-----|-------------5---|---------5-5-----|

PRE-CHORUS II (2X)
G||-----------------|-----------------|-----------------|-----------------|
D||-----------------|-----------------|-4-4-------------|-----------------|
A||-----------------|-----------------|-----7---5-------|-----5-7---------|
E||-5-5-5---5-5-----|-5-5-5---5-5-----|-------------5---|---------5-5-----|

BRIDGE:
G||-----------------|-----------------|-----------------|-----------------|
D||-----------------|-----------------|-----------------|-----------------|
A||-----------------|-----------------|-5-5---5-----5-7-|-4-------4-------|
E||-2-2-2---2-2-----|-2-2-2---2-2-----|-----------7-----|-----------------|

G||-----------------|-----------------|-----------------|-----------------|
D||-----------------|-----------------|-----------------|-----------------|
A||-----------------|-----------------|-5-5---5-----5-7-|-4-------7-------|
E||-2-2-2---2-2-----|-2-2-2---2-2-----|-----------7-----|-----------------|

VERSE: (4X)

PRE-CHORUS II (2X)

VERSE: (4X)

PRE-CHORUS II (Repeat & Fade)