Bass Tab : Bob Marley – Is This Love

LiensPartition Basse et Playback Basse

Tablature ci-dessous :

Afficher en Plein Ecran
Introdução
G |---------------------------|--------6-------76--7-6--|
D |------4---7---4-----4------|---4-7--------7----7---7-|
A |---47------------47--------|--5----------------------|
E |---------------------------|-------------------------|

G |---------------------------|-------------------------|
D |------4---7---4-----4------|---4-7-------------------|
A |---47------------47--------|--5----------------------|
E |---------------------------|-----------5-5-5-4-4-4-2-|

Verso
G |----------------------------------------------------|
D |--------------------------------4-7-----------------|
A |--------------------------5-55-5--------------------|
E |-----------------------------------5--5-5-5-4-4-4-2-|

G |----------------------------------------------------| (3x)
D |------4---7---4-----4-----------4-7-----------------|
A |---47------------47-------5-55-5--------------------|
E |-----------------------------------5--5-5-5-4-4-4-2-|
  
G |----------------------|----------------------|
D |--------6-------------|--------4-------------|
A |-4-44--6----4--4--44--|-2-22--4----2--2--22--|
E |--------------7--7----|--------------5--5----|

G |----------------------|----------------------|
D |--------6-------------|--------4-------------|
A |-4-44--6----4--4--44--|-2-22--4----2--2--22--|
E |--------------7--7----|--------------5--5----|

G |----------------4------------------------|
D |------------2-----4--------6-------------|
A |-2---4---5----------4-44--6----4--4--44--|
E |---------------------------------7--7----|

G |----------------/7-6----7-6--7-6--7-6-|----------------------|
D |------------2-------------------------|--------6-------------|
A |-2---4---5----------------------------|-4-44--6----4--4--44--|
E |--------------------------------------|--------------7--7----|

G |----------------------|----------------------|
D |--------4-------------|------------------44--|
A |-2-22--4----2--2--22--|--------4---4-44-4----|
E |--------------5--5----|-2-22--4--------------|

Virada
G |-----------------|---------------------------------------|
D |-2---------------|-------------------4-7-----------------|
A |-----5---4---2---|-----------4--5---5--------------------|
E |-----------------|--22-2-5-2------------5--5-5-5-4-4-4-2-|