Bass Tab : Bob Marley – Waiting In Vain

LiensPartition Basse et Playback Basse

Tablature ci-dessous :

Afficher en Plein Ecran
Chorus   
G|------------------------------------5---------|
D|---------------------------------------8-6----|
A|----------------------4----4--64----------8-6-|
E|-4----4--64--44--44--6------------------------|

 Verse
G|--------------------------------------------|
D|--------------------------------------------|
A|----------------------4----4--64--44--44--6-|
E|-4----4--64--44--44--6----------------------|

 Bridge
G|--------------------|--------------------|
D|--------------------|--------------8-----|
A|-4--------6----6----|--------------------|
E|--------------6-----|-8-------6----------|

G|--------------------|----------------8-65---|
D|--------------------|---------------8-----8-|
A|-4--------6----6----|--------------6--------|
E|--------------6---9-|-8-------6--9----------|