Bass Tab : Bruno Mars – Locked Out Of Heaven

Liens : Partition Basse et Playback Basse

Tablature ci-dessous :

Main Riff
G|---------|---------------------------------------------------|
D|---------|---------------------------------------------------|
A|----3--5-|----3h5-3-------------------------------------3--5-|
E|---------|----------5-6----5h6-5-1-3--3-3--3---3-3--3--------|

Pre - Chorus
G|-----------------------------------------------------------------|
D|-------------------------------------5h7-----5h7-----5h7-----5h7-|
A|-----------------------------------------------------------------|
E|-1-1-1-1-1-1-1-1-1-1-1-1-1-1-1-1-5-5-----5-5-----5-5-----5-5-----|

Chorus
G|-----------------------------------------|
D|-----------------------------------------|
A|-----------------------------------------|
E|-6666-6666-3333-3333-1111-1111-8888-8888-|

Breakdown 
G|-------------------------------------------|
D|-------------------------------------------|
A|-------------------------------------------|
E|--6---------3-----------1-----------8------|

Chorus End
G|----------------------------------------------|
D|----------------------------------------------|
A|-----13131313----10101010----8888----15151515-|
E|-6666--------3333--------1111----8888---------|

G|----------------------------------------------|
D|----------------------------------------------|
A|-----6/1313------3/1010------1/88------8/1515-|
E|-66----------33----------11--------88---------|