Bass Tab : Jamiroquai – Cosmic Girl

LiensPartition Basse et Playback Basse   /   GPTabs Guitar Pro

Tablature ci-dessous :

Afficher en Plein Ecran
Verse 

G|-----|---------------|----------------|---------------|----------------|
D|-----|-------2----023|4---------------|-------2----023|4---------------|
A|-----|------2--------|---3--02--2-x2--|------2--------|---3--02----210-|
E|-15\-|0--3-----------|----------------|0--3-----------|---------------3|
G|---------------|----------------|---------------|-----------------|
D|-------2----023|4---------------|-------2----023|4----------------|
A|------2--------|---3--02--2-x2--|------2--------|---3--02---2/14\-|
E|0--3-----------|----------------|0--3-----------|-----------------|
Chorus 1

G|---------------|----------------|---4-----66--6-|------3---4---6-|
D|--66-----44--4-|----------------|---------------|----------------|
A|---------------|----------------|2---2/4----4---|4---1---2---4---|
E|4---4-2----2---|2---2-0-220-2-0-|---------------|----------------|

G|---------------|----------------|---4-----66--6-|------3---4-----|
D|--66-----44--4-|----------------|---------------|----------------|
A|---------------|----------------|2---2/4----4---|4---1---2-------|
E|4---4-2----2---|2---2-0-220-2-0-|---------------|------------12\-|

Chorus 2

G|---------------|----------------|--44-----66--6-|------3---4---6-|
D|--66-----44--4-|----------------|---------------|----------------|
A|---------------|----------------|2---2/4----4---|4---1---2---4---|
E|4---4-2----2---|2---2-0-220-2-0-|---------------|----------------|

G|---------------|----------------|--44-----66--6-|------3---4-----|
D|--66-----44--4-|----------------|---------------|----------------|
A|---------------|----------------|2---2/4----4---|4---1---2-------|
E|4---4-2----2---|2---2-0-220-2-0-|---------------|------------12\-|