Bass Tab : Jamiroquai – Little L

LiensPartition Basse et Playback Basse   /   GPTabs Guitar Pro

Tablature ci-dessous :

Afficher en Plein Ecran
Intro
 G|------------------------------810|
 E|---------------------------------|
 A|----66-8--666-------66-8---------|
 E|1---2---3---4---1---2---3---4----| (temps pour info, ne pas jouer)

Verse/Chorus
 |----------------|----------------|----------------|----------------|
 |----------------|--6-------6---4-|----------------|--8-------8-----|
 |6---6--x6-6-----|----------------|----------------|------------8---|
 |--------------4-|----4---4---2---|1---1--x1-4-5-6-|----6---6-------|

 |----------------|----------------|----------------|--3-------6---7-|
 |----------------|--6-------6---4-|----------3-----|----------------|
 |6---6--x6-6-----|----------------|--------------1-|----1---4---5---|
 |--------------4-|----4---4---2---|1---1--x1-------|----------------|

 |----------8-----|----------------|----------------|----------------|
 |----------------|--6-------6---4-|----------------|--8-------8-----|
 |6---6--x6-------|----------------|----------------|------------8---|
 |--------------4-|----4---4---2---|1---1--x1-4-5-6-|----6---6-------|

 |----------8-----|----------------|----------------|--------------10|
 |----------------|--6-------6---4-|----------------|--8-------8-----|
 |6---6--x6-------|----------------|----------------|------------8---|
 |--------------4-|----4---4---2---|1---1--x1-4-5-6-|----6---6-------|