Bass Tab : Michael Jackson – Rock With You

Liens : Partition Basse et Playback Basse

Tablature ci-dessous :

Afficher en Plein Ecran
Chorus:
G|------------------|------------------|------------------|---------------------|
D|------------------|---------8--------|------------------|-----------11----12--|
A|-6------66-----6--|--------8---8-----|-6------66-----6--|---------------------|
E|------------------|-6-----------6-9--|------------------|-6-----9------10-----|

G|------------------|------------------|------------------|------------------|
D|------------------|---------8--------|------------------|------------------|
A|-6------66-----6--|--------8---8-----|------------------|---------------4--|
E|------------------|-6-----------6-5--|-4---4-4-------4--|-4---4-4---5-6----|

Verse:
G|------------------|------------------|------------------|------------------|
D|------------------|------------------|------------------|---------8--------|
A|-6------66--x-----|------------------|------------------|--------8---8-----|
E|-------------2-3--|-4------44---5----|-6------66-----6--|-6-----------6-9--|

G|------------------|------------------|------------------|------------------|
D|------------------|------------------|-------------8----|------------------|
A|-6------66--x-----|------------------|------------8--8--|----------8---6---|
E|-------------2-3--|-4------44---5----|-6------66--------|-6-------6-6-4-4--|

Pre-Chorus:
G|------------------|------------------|------------------|------------------|
D|------------------|------------------|------------------|-------6-----6----|
A|------------------|------------------|-2-------2--2-----|-----6----6-------|
E|-2------22-----2--|-1-1---111-1---1--|--------4----3-4--|(4)4-------4---4--|

G|------------------|------------------|------------------|------------------|
D|------------------|------------------|-------------5-6--|(6)---------------|
A|-6---8---9--------|------------------|-6---8---9--------|------------------|
E|------------------|------------------|------------------|---4-4---4---4-2--|

Chorus:
Verse:
Pre-Chorus:

Chorus:
G|------------------|------------------|------------------|---------------------|
D|------------------|---------8--------|------------------|-----------11----12--|
A|-6------66-----6--|--------8---8-----|-6------66-----6--|---------------------|
E|------------------|-6-----------6-9--|------------------|-6-----9------10-----|

G|------------------|------------------|------------------|------------------|
D|------------------|---------8--------|------------------|------------------|
A|-6------66-----6--|--------8---8-----|------------------|------------------|
E|------------------|-6-----------6-5--|-4---4-4-------4--|-4-----4-----4----|

Special :
G|------------------|--------------------|------------------|------------------|
D|------------------|-11-10-8---8--------|------------------|------------------|
A|---------------8--|--------------8-----|-6------66-----6--|(6)------6-9-8-6--|
E|-6------66--------|---------------6----|------------------|------------------|

G|------------------|------------------|------------------|------------------|
D|------------------|------------------|------------------|---6-6-6-6-6-6----|
A|------------------|------------------|-2-------2--2-----|---------------4--|
E|-2------22-----2--|-1-1---111-1---1--|--------4----3-4--|(4)---------------|

Solo :
G|------------------|------------------|------------------|---------------------|
D|---------------6--|---------8--------|---------------9--|-----------11----12--|
A|-6------66-8-9----|--------8---8-----|-6------66-8-9----|---------------------|
E|------------------|-6-----------6-9--|------------------|-6-----9------10-----|

G|------------------|------------------|------------------|68-6--------------|
D|---------------6--|------------------|------------------|-----8-6----------|
A|-6------66-8-9----|------------------|------------------|---------9-6------|
E|------------------|-6-----8-----9----|-9----------------|-------------9----|

G|------------------|------------------|------------------|---------------------|
D|---------------6--|---------8--------|---------------9--|-----------11----12--|
A|-6------66-8-9----|--------8---8-----|-6------66-8-9----|---------------------|
E|------------------|-6-----------6-9--|------------------|-6-----9------10-----|

G|------------------|------------------|------------------|------------------|
D|---------------6--|------------------|------------------|------------------|
A|-6------66-8-9----|------------------|------------------|--------5---------|
E|------------------|-6-----8-----9----|-9----------------|------------------|

Final 1 :
G|------------------|------------------|------------------|------------------|
D|------------------|---------9--------|------------------|------------------|
A|-7------77--------|--------9---9-----|-7------77--------|-------5---5-5-6--|
E|----------------0-|-7-----------7-9--|----------------0-|-7--------7-------|

G|------------------|------------------|------------------|------------------|
D|------------------|---------9--------|------------------|------------------|
A|-7------77--------|--------9---9-----|------------------|---------------5--|
E|----------------0-|-7-----------7-6--|-5------55------5-|-5------55-6-7----|

Final 2 :
G|------------------|------------------|------------------|------------------|
D|------------------|---------9--------|------------------|------------------|
A|-7------77--------|--------9---9-----|-7------77--------|-------5---5-5-6--|
E|----------------0-|-7-----------7-9--|----------------0-|-7--------7-------|

G|------------------|------------------|------------------|------------------|
D|------------------|---------9--------|----------------7-|-7-8-9---7-7-8-9--|
A|-7------77--------|--------9---9-----|------------------|-------9----------|
E|----------------0-|-7-----------7-6--|-5-----5-5--------|------------------|

G|------------------|------------------|------------------|------------------|
D|------------------|---------9--------|------------------|------------------|
A|-7------77--------|--------9---9-----|-7------77--------|-------5---5-5-6--|
E|----------------0-|-7-----------7-9--|------------------|-7--------7-------|

G|------------------|------------------|------------------|------------------|
D|------------------|---------9--------|------------------|------------------|
A|-7------77--------|--------9---9-----|------------------|------------------|
E|----------------0-|-7-----------7-6--|-5-----5-5--------|-5----------------|