Bass Tab : Michael Jackson – I Want You Back

LiensPartition Basse et Playback Basse   /   GPTabs Guitar Pro

Tablature ci-dessous :

Afficher en Plein Ecran
    Verse
G:-------------------------------------------------
D:-------13---------0123-----------------------6-6-
A:-----23--4----134-------3--4-----1--6------68-8--
E:-4----------------------------4--------4---------

    Chorus
G:---------------------------------------------------------
D:-6-65-533---------------1-0123-3---------------------6-6-
A:----------6-3634-43-311---------3--4-----1--6------68-8--
E:--------------------------------------4--------4---------

    Bridge 1
G:------------------------------------------|
D:------------------------------------------|
A:------------------------------------------|
E:--4444------4444------4444------4444------|

    Chorus 2
G:-----------------6-----------------------------------------
D:-6-65-533-------6---------1-0123-3---------------------6-6-
A:----------6-3634--3-33-11---------3--4-----1--6------68-8--
E:----------------------------------------4--------4---------

    Bridge 2
G:-------------------
D:-3-6----------3----
A:-----3------4------
E:----------------4--

G:-----5--------------------------
D:-3-6---------5-----3-6----------
A:-------3---6---4-----------3-6--
E:-----------------------4--------

    Chorus 3
G:--------------------------------------------------
D:-6-65-533---------------1-0123-3------------------
A:----------6-3634-43-311---------3--4-----1--6-----
E:--------------------------------------4--------4--

G:----------------------------|
D:------------------------6-6-|
A:----------------------68-8--|
E:--4444------4444------------|