Bass Tab : Pharrell Williams – Happy

Tablature ci-dessous :

Partition Basse et Playback Basse   /   GPTabs Guitar Pro

Intro
G|--------------------------------|
D|-15-15-15-15-15-----------------|
A|--------------------------------|
E|--------------------------------|

Verse
G|-----13--15--13-17--15--13--13-----|-----13--15--13-17---------------|-----------|
D|-15-----------------------15--15---|-15------------------3-1---------|-----------|
A|-----------------------------------|-------------------------3-1-----|-----------|
E|-----------------------------------|-----------------------------4---|-1---------|

G|-----------------------------|-----13--15--13-17---------------|-------------|
D|----6--8--6-10--8--6---6-----|-15------------------------------|-------------|
A|-8-------------------8---8---|---------------------8-6---------|-------------|
E|-----------------------------|-------------------------8-6-4---|-1-----------|

Chorus
G|-----------6-------------5------------5-------------10--|
D|---------6-------------5------------5-------------------|
A|-4---4-4-----3--3--3-3------3---3-3-----8--8--8-8-8-----|
E|--------------------------------------------------------|

G|-----------6-------------5------------5-----------------|
D|---------6-------------5------------5---3--3--3-3-1-----|
A|-4---4-4-----3--3--3-3------3---3-3-----------------3-1-|
E|--------------------------------------------------------|

Break
G|--------------------------------------|
D|--------------------------------------|
A|--------------------------------------|
E|-1--1-1---1--1-1---1--1-1---1--1-1----|