Bass Tab : Prince – Purple Rain

Liens : Partition Basse et Playback Basse

Tablature ci-dessous :

Verse
 4/4
|-----------------|-----------------|-----------------|-----------------|
|-----------------|-----------------|-----------------|-----------------|
|-1---------1-1-1-|------------/5---|------------/8---|-6---5-------65-6|
|-----------------|-3---5---6-------|-1---------------|-------8---6---8-|

                                                       2/4
|-----------------|-----------------|-----------------|---------|-----------------|
|-----------------|-----------------|-----------------|---------|-----------------|
|-----------------|------------/5---|-----------------|-----5---|-----------------|
|-6---------------|-3---5---6-------|-1-1-1-1-1-1-1-1-|-1-6---8-|-6---------------|


Chorus
 4/4
|-----------------|-----------------|-----------------|-----------------|
|-----------------|-----------------|-----------------|-----------------|
|-6---------x-----|-6-----------5---|-----------------|-----------------|
|-----------------|---------------8-|-6---------x---x-|-3---------x---3-|

                                                       2/4
|-----------------|-----------------|-----------------|---------|-----------------|
|-----------------|-----------------|-----------------|---------|-----------------|
|---------------3-|/8---------------|-----------------|-----5---|-----------------|
|-1-----------1---|-----------------|-1-1-1-1-1-1-1-1-|-1-6---8-|-6---------------|


Solo/Outro
 4/4
|-----------------|-----------------|-----------------|-----------------|
|-----------------|-----------------|-----------------|-----------------|
|-1---------1-1-1-|------------/5---|------------/8---|-6---5-------65--|
|-----------------|-3---5---6-------|-1---------------|-------8---6---8-|

|-----------------|-----------------|-----------------|-----------------|
|-----------------|-----------------|-----------------|-----------------|
|-----------------|------------/5---|------------/8---|-6---5-------65-6|
|-6---------6-6-6-|-3---5---6-------|-1---------------|-------8---6---8-|