Bass Tab : Chuck Berry – Johnny B Goode

Liens : Partition Basse et Playback Basse   /   GPTabs Guitar Pro

Tablature ci-dessous :

Partie 1
G|------------------------5-------5-------------------|
D|--------------------5-8-----5-8---8-8x-----8-8x-----|
A|------------------6-------6-----------8-10-----8-10-|
E|--------6-------------------------------------------|

G|----7---------7--------7-10------7-10----|
D|-10--------10--------8--------78--------7|
A|------8-10------8-10-------810-------810-|
E|-----------------------------------------|

Partie 2
G|---------------------7-10-----------------5---------------------------|
D|-8---------------5-8--------8-8x--8---5-8-----5-885-8---------------5-|
A|---10-8-10---5-8----------8-----8---6-------6------8--10-8-10---5-8---|
E|-----------6--------------------------------------------------6-------|

G|----7---------7------------------------|
D|-10--------10--------8x--------------5-|
A|------8-10------8-10---10-8-10---5-8---|
E|-------------------------------6-------|

Partie 3 – Refrain : Go, go, go, Johnny, go.Go, go, Johnny, go...
G|---7-10------------------------------------5-6-5-----------------|
D|-8-------88-8x-----8---------------5---5-8-------8-----8---------|
A|--------8-----8-10---10-8-10---5-8---6------------81010--10-8-10-|
E|-----------------------------6-----------------------------------|

G|------------7---------7------------------------|
D|-------5-10--------10--------8x--------------5-|
A|---5-8--------8-10------8-10---10-8-10---5-8---|
E|-6-------------------------------------6-------|

Partie 4
G|-----------------------------------------5---------------------|
D|-88----558---------------5-8-8x--8---558--8--558-----8---------|
A|---5588----10-8------5-8-------8---66------66---81010--10-8-10-|
E|----------------10-6-------------------------------------------|

G|--------------7-----------7--------------------------|
D|-------5--1010-10-----1010-10-----78---------------5-|
A|---5-8-----------8-108--------8810---10-8-10---5-8---|
E|-6-------------------------------------------6-------|

Partie 5 – Refrain : Go, go, go, Johnny, go.Go, go, Johnny, go...
G|---7-10-1210------------7710101210----------------5----------|
D|-88---------8---------88----------8-----------5-8--8--5-8---7|
A|--------------10-8-10---------------10-8-10-66------66---810-|
E|-------------------------------------------------------------|

G|----------------------7---------7------------------------|
D|-8---------------5-10--------10--------8x--------------5-|
A|---10-8-10---5-8--------8-10------8-10---10-8-10---5-8---|
E|-----------6-------------------------------------6-------|

Partie 6 – Solo
G|----------------------------------------5-------5-|
D|--------------------------8-8-8-8---5588-8--5588-8|
A|---------6------------------------66------66------|
E|-6----------------6-------------------------------|

G|-----------------------------7----------7----------------------|
D|-88----------------5---771010-10--771010-1088----------------55|
A|---1010881010--5588-688---------88-----------1010881010--5588--|
E|-------------66----------------------------------------66------|
   .       .        .   .
G|----------------------------------------5-------5-|
D|-8----------------8---8---88888888--5588-8--5588-8|
A|---------6------------------------66------66------|
E|--------------------------------------------------|

G|-----------------------------7----------7----------------------|
D|-88----------------5---771010-10--771010-1088----------------55|
A|---1010881010--5588-688---------88-----------1010881010--5588--|
E|-------------66----------------------------------------66------|

Partie 7
G|-----------------------------------------5---------------------|
D|-88----558---------------5-8-8x--8---558--8--558-----8---------|
A|---5588----10-8------5-8-------8---66------66---81010--10-8-10-|
E|----------------10-6-------------------------------------------|

G|--------------7-----------7--------------------------|
D|-------5--1010-10-----1010-10-----78---------------5-|
A|---5-8-----------8-108--------8810---10-8-10---5-8---|
E|-6-------------------------------------------6-------|

Partie 8 – Refrain : Go, go, go, Johnny, go.Go, go, Johnny, go...
G|---7-10-1210------------7710101210----------------5----------|
D|-88---------8---------88----------8-----------5-8--8--5-8---7|
A|--------------10-8-10---------------10-8-10-66------66---810-|
E|-------------------------------------------------------------|

G|----------------------7---------7--------------------------------|
D|-8---------------5-10--------10--------8x------------------------|
A|---10-8-10---5-8--------8-10------8-10---10-8-10-----------------|
E|-----------6-------------------------------------6--6~-----------|