Bass Tab : Arctic Monkeys – Do I Wanna Know

Liens : Partition Basse et Playback Basse

Tablature ci-dessous :

 

Verse 1 (0:06) - Verse 2 (2:02)
G|----------|-----------|-----------|----------|
D|----------|-----------|-----------|----------| x5
A|----------|-6----3----|-----------|----------|
E|-3--------|-----------|-------10--|-3--------|

G|----------|-----------|---------|------------|
D|----------|-----------|---------|------------|
A|----------|-6----3----|---------|-5------10--|
E|-3--------|-----------|---------|------------|

Pre-Chorus (1:13) - Ending (2:44)
G|-------------|------------|-------------|------------|
D|-------------|------------|-------------|------------|
A|-6-----356-5-|-3---1-3---1|-35--------1-|--------10\-|
E|-------------|------------|---3-----13--|-3----------|

G|-------------|------------|-------------|------------|
D|-------------|------------|-------------|------------|
A|-6-----356-5-|-3---1-3---1|-35--------1-|----------1-|
E|-------------|------------|---3-----13--|-3------13--|

Chorus (1:36) - Ending (3:07)
G|-------------|-------------|--------------|-------------|
D|-------------|-------------|--------------|-------------|
A|---------1-8-|-6---5-3-----|-353-----35-5-|-----------1-|
E|-3-----13----|------------6|--------6-----|-3\------13--|

G|-------------|-------------|--------------|-------------|
D|-------------|-------------|--------------|-------------|
A|---------1-8-|-6---5-3-----|-353-----35-5-|-----------1-|(10\)
E|-3-----13----|---------6--6|--------6-----|-3\------13--|

Ending (3:30)
G|-------------|------------|-------------|------------|
D|-------------|------------|-------------|------------| x3
A|-6-----356-5-|-3---1-3---1|-35--------1-|--------10\-|
E|-------------|------------|---3-----13--|-3----------|

G|-------------|------------|-----------|-----------|
D|-------------|------------|-----------|-----------|
A|-6-----356-5-|-3---1-3----|----------1|-35--------|
E|-------------|------------|-3---------|---3-------|

G|-----------|-----------|
D|-----------|-----------| x2
A|----------1|-35--------|
E|-3---------|---3-------|