Bass Tab : Arctic Monkeys – R U Mine

Liens : Partition Basse et Playback Basse

Tablature ci-dessous :

Starts at 0:21
G|-----------------------------------|
D|-----------------------------------|
A|-----------------------------------|
E|-10-----10-10---9---7-----7-7---5--|
 | +    -    +    -   +   -   +   -  |

Riff1 (0:23 to 0:43)
G|-------------------------------------------------------------------|
D|---------------------7---------------------------------------------|
A|-----------------7h9-----9---7-------------------------------------|  [X4]
E|-2-----2-2---7h9-----------------10-----10-10---9---7-----7-7---5--|
 | +   -   +   -   +   -   +   -   +    -    +    -   +   -   +   -  |

Chorus (0:43 to 1:03)
G|-------------------------------------------------------------------|
D|-------------------------------------------------------------------|
A|-------------------------------------------------------------------|  [X3]
E|-2-----2-2-----------------------10-----10-10---9---7-----7-7---5--|
 | +   -   +   -   +   -   +   -   +    -    +    -   +   -   +   -  |

G|-------------------------------------------------------------------|
D|-------------------------------------------------------------------|
A|-----------------7h9-----7h9---------------------------------------|
E|-2-----2-2---7h9-----7h9-----7h9-10-----10-10---9-------7-------5--|
 | +   -   +   -   +   -   +   -   +    -    +    -   +   -   +   -  |

Riff2 (1:03)
G|-------------------------------------------------------------------|
D|-------------------------------------------------------------------|
A|-------------------------------------------------------------------|  [X3]
E|-2-----2-2-----------------------10-----10-10---9---7-----7-7---5--|
 | +   -   +   -   +   -   +   -   +    -    +    -   +   -   +   -  |

G|-------------------------------------------------------------------|
D|---------------------7-----------12-----12-12---11--9-----9-9------|
A|-----------------7h9-----9---7----------------------------------12-|
E|-2-----2-2---7h9---------------------------------------------------|
 | +   -   +   -   +   -   +   -   +    -    +    -   +   -   +   -  |

G|-------------------------------------------------------------------|
D|---------------------7---------------------------------------------|
A|-----------------7h9-----9---7-------------------------------------|  [X4]
E|-2-----2-2---7h9-----------------10-----10-10---9---7-----7-7---5--|
 | +   -   +   -   +   -   +   -   +    -    +    -   +   -   +   -  |

"..are you mine?..." (1:43) the instruments enter later
G|-------------------------------------------------------------------|
D|-------------------------------------------------------------------|
A|-------------------------------------------------------------------|
E|---------------------------------10-----10-10---9---7-----7-7---5--|
 | +   -   +   -   +   -   +   -   +    -    +    -   +   -   +   -  |



G|-------------------------------------------------------------------|
D|-------------------------------------------------------------------|
A|-------------------------------------------------------------------|  [X2]
E|-2-----2-2-----------------------10-----10-10---9---7-----7-7---5--|
 | +   -   +   -   +   -   +   -   +    -    +    -   +   -   +   -  |

G|-------------------------------------------------------------------|
D|-------------------------------------------------------------------|
A|-----------------7h9-----7h9----------------------------7----------|
E|-2-----2-2---7h9-----7h9-----7h9-10-----10-10---9---------------9--|
 | +   -   +   -   +   -   +   -   +    -    +    -   +   -   +   -  |

Bridge (2:02)
G|---------------------------------------------------------------------|
D|---------------------------------------------------------------------|
A|---------------------------------------------------------------------|
E|-7-----7-7-----7-7-----7-7---9---10-----10-10-----10-10----10-10--9\-|
 | +   -   +   -   +   -   +   -   +    -    +    -    +   -    +   -  |

G|----------------------------------------------------------------|
D|----------------------------------------------------------------|
A|----------------------------------------------------------------|
E|-2-----2-2-----2-2-----2-2---4---5-----5-5-----5-5-----5-5---5--|
 | +   -   +   -   +   -   +   -   +   -   +   -   +   -   +   -  |

G|-------------------------------------------------------------------|
D|-------------------------------------------------------------------|
A|-------------------------------------------------------------------|
E|-7-----7-7-----7-7-----7-7---9---10-----9-9-----7-7-----5-5-----0--|
 | +   -   +   -   +   -   +   -   +    -   +   -   +   -   +   -    |

2:17
G|---------------------------------------|
D|---------------------------------------|
A|---------------------------------------|
E|-2-2---2-2-----------------------------|
 | +   -   +  -  + - + - + - + - + - + - |

2:22
G|-------------------------------------------------|
D|--------------------------------------9-11-------|
A|-----------------------------------12--------12--|
E|-2-2---2-2---------------------------------------|
 | +   -   +  -  + - + - + - + - +   -    +    -   |

2:27
G|---------------------------------------|
D|---------------------------------------|
A|-9-9---9-9\----------------------------|
E|---------------------------------------|
 | +   -   +  -  + - + - + - + - + - + - |

Outro (2:37) small variations on the Riff1
G|-------------------------------------------------------------------|
D|-------------------------------------------------------------------|
A|-----------------7h9-9---9---7-------------------------------------|
E|-2-----2-2---7h9-----------------10-----10-10---9---7-----7-7---5--|
 | +   -   +   -   +   -   +   -   +    -    +    -   +   -   +   -  |

G|-------------------------------------------------------------------|
D|-------------------------------------------------------------------|
A|-----------------7h9-9---7h9-9-------------------------------------|
E|-2-----2-2---7h9-----------------10-----10-10---9---7-----7-7---9--|
 | +   -   +   -   +   -   +   -   +    -    +    -   +   -   +   -  |

G|-------------------------------------------------------------------|
D|---------------------7---------------------------------------------|
A|-----------------7h9-----9---7-------------------------------------|
E|-2-----2-2---7h9-----------------10-----10-10---9---7-----7-7---5--|
 | +   -   +   -   +   -   +   -   +    -    +    -   +   -   +   -  |

G|-------------------------------------------------------------------|
D|-------------------------------------------------------------------|
A|-----------------7h9-----7h9---------------------------------------|
E|-2-----2-2---7h9-----7h9-----7h9-10-----10-10---9---7-----7-7---5--|
 | +   -   +   -   +   -   +   -   +    -    +    -   +   -   +   -  |

2:56
G|-------------------------------------------------------------------|
D|-------------------------------------------------------------------|
A|-----------------7h9-9---9-7---------------------------------------|
E|-2-----2-2---7h9-------------9-7-10-----10-10---9---7-----7-7---5--|
 | +   -   +   -   +   -   +   -   +    -    +    -   +   -   +   -  |

G|-------------------------------------------------------------------|
D|-------------------------------------------------------------------|
A|-----------------7h9-9---9-7---------------------------------------|
E|-2-----2-2---7h9-------------9-7-10-----10-10---9---7-----7-9\-----|
 | +   -   +   -   +   -   +   -   +    -    +    -   +   -   +   -  |

G|-------------------------------------------------------------------|
D|-------------------------------------------------------------------|
A|-----------------7h9-----7h9---------------------------------------|
E|-2-----2-2---7h9-----7h9-----7h9-10-----10-10---9---7-----7-7---5--|
 | +   -   +   -   +   -   +   -   +    -    +    -   +   -   +   -  |

G|-------------------------------------------------------------------|
D|-----------------------7-------------------------------------------|
A|-----------------7h9-9---9-7-------------7-------------------------|
E|-2-----2-2---7h9-------------9---10---10---10-9-7-------9-------5--|
 | +   -   +   -   +   -   +   -   +    -    +    -   +   -   +   -  |

End
G|---------------------------------------|
D|---------------------------------------|
A|---------------------------------------|
E|-2-2---2-2-----------------------------|
 | +   -   +  -  + - + - + - + - + - + - |