Bass Tab : Boney M – Sunny

LiensPartition Basse et Playback Basse   /   GPTabs Guitar Pro

Tablature ci-dessous :

Afficher en Plein Ecran
Intro 
G|------------------|------------------|------------------|-------------------|
D|------------------|-6-6-6------------|------------------|-6-6-6-------------|
A|-3-3-3----6-6-6---|----------5-5-----|-3-3-3----6-6-6---|----------5-5-----2|
E|------------------|--------------3---|------------------|--------------3-35-|

Verse 1
G|------------------|-------------------|------------------|-------------------|
D|------------------|-6-6-6-------------|------------------|-6-6-6--------5----|
A|-3---3----6-6-6---|----------5-5-----2|-3---3----6-6-6---|----------5-5---5-5|
E|---3--------------|--------------3-35-|---3--------------|-----------------3-|

G|------------------|--------------------|------------------|------------------|
D|------------------|-6-6-6--------------|-----------55555--|------------------|
A|-3---3----6-6-6---|----------4-4-4---4/|-5-5-5----5-------|-3---1-----------2|
E|---3--------------|--------------------|------------------|---------4---3-35-|

Verse 2
G|------------------|-------------------|------------------|--------------------|
D|----------------4/|-6-6-6---6/---5----|----------------4/|-6-6-6--6/----55--5-|
A|-3-3-3--4/6-6-6---|----------5-5-----2|-3-3-3--4/6-6-6---|----------55-5---5-5|
E|------------------|----------------35-|------------------|--------------------|

G|--------35-------8-|--------------------|------------------|-----------------|
D|-------5--------8--|-6-6-6---6/---------|-----------55555--|--------56-------|
A|-3-3-3----6-6-6----|----------4-4-4---4/|-5-5-5----5-------|------68-------3-|
E|-------------------|--------------------|------------------|-8--6-------4-6-4|

Verse 3
G|--------46-------9-|-------------------|--------46-------9-|-------------------|
D|-------6--------9-9|-7-7-7-------------|-------6--------9-9|-7-7-7-------------|
A|-4-4-4----7-7-7----|----------6-6-----3|-4-4-4----7-7-7----|----------6-6-----3|
E|-------------------|-------575----4-46-|-------------------|-------575----4-46-|

G|--------46-------9-|-------------------|-----------------|------------------|
D|-------6--------9-9|-7-7-7--7--------7-|--------8-66666--|------------------|
A|-4-4-4----7-7-7----|-------7-75-5-5-5-5|-6-6-6-6-6-------|-4---------------3|
E|-------------------|-------------------|-----------------|-----7---5---4-46-|

Verse 4
G|--------46-------9-|-------------------|--------46-------9-|-------------------|
D|-------6--------9-9|-7-7-7-------------|-------6--------9-9|-7-7-7-------------|
A|-4-4-4----7-7-7----|----------6-6-----3|-4-4-4----7-7-7----|----------6-6-----3|
E|-------------------|-------575----4-46-|-------------------|-------575----4-46-|

G|--------46-------9-|-------------------|-----------------|-----------------|
D|-------6--------9-9|-7-7-7--7--------7-|--------8-66666--|--------677777---|
A|-4-4-4----7-7-7----|-------7-75-5-5-5-5|-6-6-6-6-6-------|-4--7-79------024|
E|-------------------|-------------------|-----------------|-----------------|

Verse 5
G|--------57-------10-|-------------------|--------57-------10-|-------------------|
D|-------7--------1010|-8-8-8-------------|-------7--------1010|-8-8-8-------------|
A|-5-5-5----8-8-8-----|----------7-7-----4|-5-5-5----8-8-8-----|----------7-7-----4|
E|--------------------|-------686----5-57-|--------------------|-------686----5-57-|

G|--------57-------10-|-------------------|-----------------| |-----------------|
D|-------7--------1010|-8-8-8--8--------8-|--------9-77777--| |----5------------|
A|-5-5-5----8-8-8-----|-------8-86-6-6-6-6|-7-7-7-7-7-------| |-5-------5----234|
E|--------------------|-------------------|-----------------| |------------3----| x4