Bass Tab : CHIC – Everybody Dance

LiensPartition Basse et Playback Basse

Tablature ci-dessous :

Afficher en Plein Ecran
Intro & Solo

G-----3555----3555----35--35------------------------3-3-----3-----|     |
D--------------------------------------------------------3--------|     |
A-3-33----3-33----3-33--33---03210------0-----1-----------1-----1-| 1.1 |
E---------------------------------4-------------------------------|     |
                                                                        | x1
G-----3555----3555----35--35------------------------3-3-------3---|     |
D--------------------------------------------------------3--3-----|     |
A-3-33----3-33----3-33--33---03210------0-----1-----------1-----1-| 1.2 |
E---------------------------------4-------------------------------|     |

G-----3555----35----77--88--77--55------------------1---2-3-------|     |
D-----------------------------------------------------------3-----|     |
A-3-33----3-33--3355--66--55--33--------0-----1--------------(1)1-| 2   | x1
E---------------------------------4-------------------------------|     |


"Everybody Dance..."

G---------------------------------------------------3-3-----3-----|
D--------------------------------------------------------3--------|
A-3-3-----3-3-----3-3-----3-3-3210------0-----1-----------1-----1-| x3
E--------3-------3-------3--------4-------------------------------|

G---------------------------------------------------1--22-3-------|
D-----------------------------------------------------------3-----|
A-3-3-----3-3-----3-3-----3-3-3210------0-----1--------------(1)1-| x1
E--------3-------3-------3--------4-------------------------------|


"Music never lets you down..."

G-----------------------------------------------------------------|
D---3-5-------------------------------------------------------3---|
A-6-----1-1-----1---3-3---3---333---------------------------3---1-| x4
E--------------------------------31---1---1---1---1---1--x1-------|