Bass Tab : Jamiroquai – Love Foolosophy

LiensPartition Basse et Playback Basse   /   GPTabs Guitar Pro

Tablature ci-dessous :

Afficher en Plein Ecran
1st Verse:
        4   1   2   3   4    1   2   3   4    1   2   3   4    1   2   3   4   
G|---------|----------------|----------------|----------------|----------------|
D|---------|----9-x99-------|----------------|----101010------|--9-------------|
A|---------|----------9-----|--7-----------7-|----------10----|------9-------5-|
E|-----14\-|7-------------0-|------0---0h7---|8-------------7-|----------5h7---|

G|----------------|----------------|----------------|----------------|
D|----9-x99-------|----------------|----------10----|--9-------------|
A|----------9-----|--7-----------7-|----------------|------7--x5-7---|
E|7-------------0-|------0---0h7---|8---8--x8-----7-|--------------5-|

G|----------------|----------------|----------------|----------------|
D|----9-x99-------|----------------|----101010------|--9-------------|
A|----------9-----|--7-----------7-|----------10----|------9--x5-7---|
E|7-------------0-|------0---0h7---|8-------------7-|--------------5-|

G|----------------|----------------|----------------|----------------|
D|----9---9-------|----------------|----------10----|--9-------------|
A|------x9--9-----|----7---------7-|----------------|------9--x5-7---|
E|7-------------0-|--7---0---0h7---|8---8--x8-----7-|--------------5-|

Chorus:
G|----------------|----------11-11-|----------6-----|----------------|
D|----------------|--4--x2-4-------|----------------|------4---5---7-|
A|2---2--x2-4-5---|----------------|4---4--x4-------|--7-------------| x4
E|--------------2-|----------------|--------------0-|----2---3---5---|

2nd Verse:
G|----------------|----------------|----------------|----------------|
D|----9-x99-------|----------------|----------10----|--9-------------|
A|----------9-----|--7-----------7-|----------------|--------------5-|
E|7-------------0-|------0---0h7---|8---8--x8-----7-|------7--x5-7---|

G|----------------|----------------|----------------|----------------|
D|----9---9-------|----------------|----------10----|-x9---7---------|
A|------x9--9-----|----7---------7-|----------------|----9----x5-7---|
E|7-------------0-|--7---0---0h7---|8---8--x8-----7-|--------------5-|

G|----------------|----------------|----------------|----------------|
D|----9-x99-------|----------------|----------10----|--9---------9---|
A|----------9-----|--7-----------7-|----------------|------9--x9-----|
E|7-------------0-|------0---0h7---|8---8--x8-----7-|--------------0-|

G|----------------|----------------|----------------|----------------|
D|----9---9-------|----------------|----------10----|-x9---7-------7-|
A|------x9--9-----|----7---------7-|----------------|----9----x7-89--|
E|7-------------0-|--7---0---0h7---|8---8--x8-----7-|----------------|

Chorus:
G|----------------|----------11-11-|----------6-----|----------------|
D|----------------|--4--x2-4-------|----------------|------4---5---7-|
A|2---2--x2-4-5---|----------------|4---4--x4-------|--7-------------| x4
E|--------------2-|----------------|--------------0-|----2---3---5---|

Interlude:
G|----------------|----------------|----------------|----------------|
D|----------9-----|----------------|----------10----|----------9---7-|
A|----------------|----------7-----|----------------|----------------| x4
E|77777-7-7-------|00000-0-0-------|88888-8-8-------|77777-7-7---5---|

Chorus:
G|---------|----------------|----------11-11-|----------6-----|----------------|
D|---------|----------------|--4--x2-4-------|----------------|------4---5---7-|
A|---------|2---2--x2-4-5---|----------------|4---4--x4-------|--7-------------| x4
E|-----14\-|--------------2-|----------------|--------------0-|----2---3---5---|