Archives pour la catégorie Calogero

Bass Tab : Calogero – le Monde Moderne

LiensPartition Basse et Playback Basse

Ci-dessous la tablature :

Couplet 1 : G  C  E  D  C  C  (x2)

Refrain 1 : A  F#  D#  E  C  D  E  -  A  D  D#  E  C(15) D(17) E(19)

Couplet 2 : 

G|------------------------------------------------------------------------------------------|
D|------------------------------------------------------------------------------------------|
A|----------------3--3--03-3-3-3-7--7--07-7-7-7-5--5--05-5-5-5-3--3--03-3----3--3--03-3-5-5-|  (x2)
E|-3--3--03-3-3-3----------------------------------------------------------3----------------|

Lire la suite

140 total views, no views today

Bass Tab : Calogero – Un Jour Au Mauvais Endroit

LiensPartition Basse et Playback Basse

Ci-dessous la tablature :

G|------------------------------------------------------------------------|
D|-9-9-12-12-----------9-9-12-12------------------------------------------|
A|-----------9-9-12-12-----------9-9-12-12-10-10-10--10--10-9-7-7-7--7--7-|
E|------------------------------------------------------------------------|

Lire la suite

32 total views, no views today

Bass Tab : Calogero – Pomme C

LiensPartition Basse et Playback Basse

Ci-dessous la tablature :

Intro : x1 Guitare
I-----------------------------------------------------------------
I-----------------------------------------------------------------
I-3-3-3-3-8-8-8-8-1-1-1-1-6-6-6-6---------------------------------
I---------------------------------4-4-4-4-9-9-9-9-3-3-3-3-3-3-3-3-

------------------------------------------------------------------------------------------I
------------------------------------------------------------------------------------------I
--3-3-3-3-8-8-8-8-1-1-1-1-6-6-6-6---------------------------------------------------------I
----------------------------------4-4-4-4-9-9-9-9-3-3-3-3-3-3-3-3-15-15-15-15-15-15-15-15-I

Lire la suite

87 total views, 1 views today

Bass Tab : Calogero – Le Portrait

LiensPartition Basse et Playback Basse   /   Bonus : Video

Ci-dessous la tablature :

Couplet 1 : F  C  F  C  A  F  G  G

Refrain 1 : 
G|-------------------------------------------------------|
D|-------------------------------------------------------|
A|--------23--23----------22--02--------3/7--5-----------|
E|-5--35----------3--23--3-------01---------------33-13--|

G|------------------------------------------------------------------|
D|-----------------------------------------7------------------------|
A|--------23--23----------22--02----/8---78--7-5--------------------|
E|-5--35----------3--23--3-------01-----------------33-13--3--------|

Lire la suite

264 total views, no views today